martes, 18 de marzo de 2014

La Vida Bohème ~Nicaragua (acordes, tab y letra)



Si quieres sacar el arpegio:
Nota: en toda la cancion se hace el mismo arpegio en cada acorde.


E:----------------------------------------
B:---------1------------------------------
G:-----------2----------------------------
D:------2---------------------------------
A:---0------------------------------------
E:----------------------------------------

Em  

E:----------------------------------------
B:---------0------------------------------
G:------------0---------------------------
D:------2---------------------------------
A:---2------------------------------------
E:----------------------------------------

F

E:----------------------------------------
B:--------1-------------------------------
G:----------2-----------------------------
D:-----3----------------------------------
A:----------------------------------------
E:---1------------------------------------


E:---------1------------------------------
B:------------3---------------------------
G:------2---------------------------------
D:---0------------------------------------
A:----------------------------------------

E:----------------------------------------


Intro:
E:----------------------------------------
B:---10-----------------------------------
G:----------------------------------------
D:----------------------------------------
A:----0-----------------------------------
E:----------------------------------------

E:----------------------------------------
B:----9-----------------------------------
G:----------------------------------------
D:----------------------------------------
A:----------------------------------------
E:----0-----------------------------------

“Ahora marcho sin rumbo…”

E:----------------------------------------
B:----------------------------------------
G:----9-----------------------------------
D:----------------------------------------
A:----------------------------------------
E:----8-----------------------------------

E:----------------------------------------
B:----------------------------------------
G:----4-----------------------------------
D:----------------------------------------
A:----------------------------------------
E:----3-----------------------------------


E:----------------------------------------
B:---9------------------------------------
G:----------------------------------------
D:----------------------------------------
A:----------------------------------------
E:---0------------------------------------


E:----------------------------------------
B:----10----------------------------------
G:----------------------------------------
D:----------------------------------------
A:----0-----------------------------------
E:----------------------------------------

Aquí entran los acordes que marqué como 'intro' en la imagen

Am Em F

Verso:
Sin guerra no hay paz, me dijo un señor
Sin sangre no hay cambio, grité con pasión
Pensé que sería diferente,
Que los que maté, no eran gente

Cariño, cariño, ¿qué nos pasó?
Em                                        Dm
Yo no quería esto, mi patria murió,
La mate yo, la mate yo,
Am       Em
Irónicamente ella me 
F
Mató

Coro:
F                                         Am
Envaina la espada y guarda el fusil
Am                                       Em
Y quería todo menos hacerte sufrir
Em                             Am
Tu tumba, cariño, por siempre estará
No no no no noooo
No no no no noooo noo
No no no no noooo
F                                   Em
Tu tumba por siempre estará cantando acá

Aquí entra y termina con los mismos acordes del intro:
Am Em F

Gracias a mi amiguito Daniel por enviarme la tab del intro.
Escucha Nicaragua
Escucha mi cover de Nicaragua 
Otros covers de La Vida Bohème:

Sigue a la banda en Twitter: @vidaboheme
Sígueme a mi porque soy chévere: @KatheriNeedsYou 

1 comentario:

Popular posts

Translate